当前位置:网站池  >  网站大全  ›  娱乐休闲  ›  音乐  ›  吉他  ›  学吉他 订阅RssFeed

网站详情

学吉他

  • 804关注热度
  • 0PageRank
  • 0百度权重
  • 4Sogou Rank
  • 0AlexaRank
  • 0入站次数
  • 10出站次数
  • 2015-09-04收录日期
  • 2019-09-17更新日期
  • 学吉他首页缩略图
  • 学吉他二维码
  • 缩略图

加入快审或者复制代码到您的网站首页,当检测到你成功加友链后,将在网站名称、网站地址及网站缩略加上贵站链接

学吉他网内容包含吉他谱下载,吉他教学视频,吉他调音,吉他弹唱,吉他教程,吉他教学,吉他入门指法,吉他音阶图,吉他资料下载,吉他工具,吉他怎么弹等

网站收录详情

 百度好搜搜狗
收录23----
反链0----
  [www.xuegita.com]网站历史收录
日期百度索引量百度收录百度反链好搜收录好搜反链搜狗收录
2019-06-10--230------
2019-06-09--330------
2019-06-03----10----
2019-05-19--340------
2019-04-27----1------
2019-04-24--181------
2019-04-07--192------
2019-03-18--12047--
2019-03-10--73------
2019-02-22--1630----

学吉他精彩点评

查看更多关于《学吉他》的评论
  • 无任何评论信息!

发表评论

  • * 昵  称:
  • * 电子邮箱:
  • * 评论内容:
  •  

本类热门网站

本类网站推荐

本类最新网站