搜谱网(www.sooopu.com) - 网站池
当前位置:网站池  >  网站大全  ›  娱乐休闲  ›  音乐  ›  歌词歌谱  ›  搜谱网 订阅RssFeed

网站详情

搜谱网

  • 614关注热度
  • 0PageRank
  • 0百度权重
  • 8Sogou Rank
  • 76,720AlexaRank
  • 1入站次数
  • 8出站次数
  • 2015-10-19收录日期
  • 2018-07-30更新日期
  • 搜谱网首页缩略图
  • 搜谱网二维码
  • 缩略图
搜谱是一个专业的歌谱搜索网站,主要有以下栏目:简谱,吉他谱,钢琴谱,电子琴谱,手风琴谱,二胡谱,笛萧谱,萨克斯谱,古筝谱,总谱,其他曲谱。另外提供歌词、MP3与伴奏搜索。

网站收录详情

 百度好搜搜狗
收录------
反链------
  [www.sooopu.com]网站历史收录
日期百度索引量百度收录百度反链好搜收录好搜反链搜狗收录
2018-08-17------------
2018-08-15------------
2018-08-14------------
2018-08-13----------1
2018-08-076,674,6841981255601
2018-08-05------------
2018-08-02----3,670----1
2018-07-31------------
2018-07-30------------
2018-07-297,330,71215,6601002461

搜谱网精彩点评

查看更多关于《搜谱网》的评论
  • 无任何评论信息!

发表评论

  • * 昵  称:
  • * 电子邮箱:
  • * 评论内容:
  •  

本类热门网站

本类网站推荐

本类最新网站