当前位置:网站池  >  网站大全  ›  娱乐休闲  ›  音乐  ›  歌词歌谱  ›  找歌谱网 订阅RssFeed

网站详情

找歌谱网

  • 1711关注热度
  • 0PageRank
  • 0百度权重
  • 5Sogou Rank
  • 24,623AlexaRank
  • 2入站次数
  • 98出站次数
  • 2015-10-19收录日期
  • 2018-02-10更新日期
  • 找歌谱网首页缩略图
  • 找歌谱网二维码
  • 缩略图
专业歌谱搜索引擎,十几万首热门歌谱、简谱、钢琴谱、吉他谱等让你随意浏览。

网站收录详情

 百度好搜搜狗
收录------
反链------
  [www.zhaogepu.com]网站历史收录
日期百度索引量百度收录百度反链好搜收录好搜反链搜狗收录
2018-02-22------------
2018-02-17------------
2018-02-13------------
2018-02-12------------
2018-02-10------------
2018-02-08------------
2018-01-31------------
2018-01-27------------
2018-01-24------------
2018-01-20543,8601,140,00018903,000935,0001,233,290

找歌谱网精彩点评

查看更多关于《找歌谱网》的评论
  • 无任何评论信息!

发表评论

  • * 昵  称:
  • * 电子邮箱:
  • * 评论内容:
  •  

本类热门网站

本类网站推荐

本类最新网站