当前位置:网站池  >  网站大全  ›  娱乐休闲  ›  音乐  ›  歌词歌谱  ›  找歌谱网 订阅RssFeed

网站详情

找歌谱网

  • 1046关注热度
  • 0PageRank
  • 6百度权重
  • 5Sogou Rank
  • 49,902AlexaRank
  • 2入站次数
  • 82出站次数
  • 2015-10-19收录日期
  • 2017-05-08更新日期
  • 找歌谱网首页缩略图
  • 找歌谱网二维码
  • 缩略图
专业歌谱搜索引擎,十几万首热门歌谱、简谱、钢琴谱、吉他谱等让你随意浏览。

网站收录详情

 百度好搜搜狗
收录------
反链------
  [www.zhaogepu.com]网站历史收录
日期百度索引量百度收录百度反链好搜收录好搜反链搜狗收录
2017-05-28------------
2017-05-27------------
2017-05-24------------
2017-05-23------------
2017-05-22------------
2017-05-20------------
2017-05-19------------
2017-05-18------------
2017-05-17------------
2017-05-14------------

找歌谱网精彩点评

查看更多关于《找歌谱网》的评论
  • 无任何评论信息!

发表评论

  • * 昵  称:
  • * 电子邮箱:
  • * 评论内容:
  •  

本类热门网站

本类网站推荐

本类最新网站