当前位置:网站池  >  网站大全  ›  娱乐休闲  ›  综艺  ›  乐器  ›  伊斯顿乐器 订阅RssFeed

网站详情

伊斯顿乐器

  • 525关注热度
  • 0PageRank
  • 0百度权重
  • 1Sogou Rank
  • 0AlexaRank
  • 0入站次数
  • 4出站次数
  • 2015-08-23收录日期
  • 2017-09-20更新日期
  • 伊斯顿乐器首页缩略图
  • 伊斯顿乐器二维码
  • 缩略图
广州伊斯顿乐器专业设计生产各类电木吉他 贝斯 UK,从事多年吉他制作人员生产,品质过硬,价格公道。现正热销中,单板的质量,合板的价格,性价比之王。材质优质,音质手感OK,价格适中,欢迎来电咨询!

网站收录详情

 百度好搜搜狗
收录000
反链23,700----
  [www.yisdun.com]网站历史收录
日期百度索引量百度收录百度反链好搜收录好搜反链搜狗收录
2017-10-150023,7000--0
2017-09-200028,6000--0
2017-08-12------------
2017-07-30------------
2017-07-20------------
2017-07-17------------
2017-07-16------------
2017-07-12------------
2017-07-08------------
2017-06-27------------

伊斯顿乐器精彩点评

查看更多关于《伊斯顿乐器》的评论
  • 无任何评论信息!

发表评论

  • * 昵  称:
  • * 电子邮箱:
  • * 评论内容:
  •  

本类热门网站

本类网站推荐

本类最新网站