当前位置:网站池  >  网站大全  ›  娱乐休闲  ›  音乐  ›  歌词歌谱  ›  歌谱收藏站 订阅RssFeed

网站详情

歌谱收藏站

  • 784关注热度
  • 0PageRank
  • 0百度权重
  • 5Sogou Rank
  • 30,141AlexaRank
  • 0入站次数
  • 38出站次数
  • 2015-10-19收录日期
  • 2017-07-23更新日期
  • 歌谱收藏站首页缩略图
  • 歌谱收藏站二维码
  • 缩略图
这里是乐谱的天地:吉他谱,简谱,歌谱,曲谱,乐谱,钢琴谱,五线谱,应有尽有,你不光临就简直太离谱:)

网站收录详情

 百度好搜搜狗
收录------
反链------
  [pu.onegreen.net]网站历史收录
日期百度索引量百度收录百度反链好搜收录好搜反链搜狗收录
2017-07-28------------
2017-07-27------------
2017-07-23------------
2017-07-17------------
2017-07-15------------
2017-07-11------------
2017-07-05------------
2017-07-03------------
2017-06-29------------
2017-06-24------------

歌谱收藏站精彩点评

查看更多关于《歌谱收藏站》的评论
  • 无任何评论信息!

发表评论

  • * 昵  称:
  • * 电子邮箱:
  • * 评论内容:
  •  

本类热门网站

本类网站推荐

本类最新网站