当前位置:网站池  >  网站大全  ›  娱乐休闲  ›  音乐  ›  歌词歌谱  ›  歌谱收藏站 订阅RssFeed

网站详情

歌谱收藏站

  • 674关注热度
  • 0PageRank
  • 4百度权重
  • 5Sogou Rank
  • 32,269AlexaRank
  • 0入站次数
  • 33出站次数
  • 2015-10-19收录日期
  • 2017-05-19更新日期
  • 歌谱收藏站首页缩略图
  • 歌谱收藏站二维码
  • 缩略图
这里是乐谱的天地:吉他谱,简谱,歌谱,曲谱,乐谱,钢琴谱,五线谱,应有尽有,你不光临就简直太离谱:)

网站收录详情

 百度好搜搜狗
收录------
反链------
  [pu.onegreen.net]网站历史收录
日期百度索引量百度收录百度反链好搜收录好搜反链搜狗收录
2017-05-26------------
2017-05-25------------
2017-05-21------------
2017-05-19------------
2017-05-17------------
2017-05-15------------
2017-05-13------------
2017-05-10------------
2017-05-07------------
2017-04-30------------

歌谱收藏站精彩点评

查看更多关于《歌谱收藏站》的评论
  • 无任何评论信息!

发表评论

  • * 昵  称:
  • * 电子邮箱:
  • * 评论内容:
  •  

本类热门网站

本类网站推荐

本类最新网站